ISO-10303-21;
HEADER;
FILE_DESCRIPTION (( 'STEP AP203' ),
    '1' );
FILE_NAME ('250805 STEP 1-400359-00_10926.STEP',
    '2025-08-05T05:57:00',
    ( '' ),
    ( '' ),
    'SwSTEP 2.0',
    'SolidWorks 2024',
    '' );
FILE_SCHEMA (( 'CONFIG_CONTROL_DESIGN' ));
ENDSEC;

DATA;
#1 = DIRECTION ( 'NONE',  ( 0.000000000000000000, 0.000000000000000000, 1.000000000000000000 ) ) ;
#2 = CC_DESIGN_PERSON_AND_ORGANIZATION_ASSIGNMENT ( #102, #146, ( #101 ) ) ;
#3 = CC_DESIGN_APPROVAL ( #120, ( #101 ) ) ;
#4 = DIRECTION ( 'NONE',  ( 0.000000000000000000, 0.000000000000000000, 1.000000000000000000 ) ) ;
#5 = ADVANCED_FACE ( 'NONE', ( #161, #71 ), #122, .T. ) ;
#6 = EDGE_LOOP ( 'NONE', ( #107 ) ) ;
#7 = CC_DESIGN_APPROVAL ( #126, ( #118 ) ) ;
#8 = VERTEX_POINT ( 'NONE', #77 ) ;
#9 = PERSON_AND_ORGANIZATION ( #83, #166 ) ;
#10 = AXIS2_PLACEMENT_3D ( 'NONE', #16, #163, #94 ) ;
#11 = CALENDAR_DATE ( 2025, 5, 8 ) ;
#12 = DATE_AND_TIME ( #26, #151 ) ;
#13 = APPROVAL_PERSON_ORGANIZATION ( #51, #126, #62 ) ;
#14 = EDGE_CURVE ( 'NONE', #123, #123, #76, .T. ) ;
#15 = EDGE_LOOP ( 'NONE', ( #46 ) ) ;
#16 = CARTESIAN_POINT ( 'NONE',  ( 0.000000000000000000, 0.000000000000000000, 0.000000000000000000 ) ) ;
#17 = ORIENTED_EDGE ( 'NONE', *, *, #85, .F. ) ;
#18 = CYLINDRICAL_SURFACE ( 'NONE', #68, 40.00000000000000000 ) ;
#19 = DIRECTION ( 'NONE',  ( 0.000000000000000000, 0.000000000000000000, 1.000000000000000000 ) ) ;
#20 = EDGE_CURVE ( 'NONE', #127, #127, #25, .T. ) ;
#21 = DIRECTION ( 'NONE',  ( -1.000000000000000000, -0.000000000000000000, -0.000000000000000000 ) ) ;
#22 =( GEOMETRIC_REPRESENTATION_CONTEXT ( 3 ) GLOBAL_UNCERTAINTY_ASSIGNED_CONTEXT ( ( #110 ) ) GLOBAL_UNIT_ASSIGNED_CONTEXT ( ( #50, #23, #111 ) ) REPRESENTATION_CONTEXT ( 'NONE', 'WORKASPACE' ) );
#23 =( NAMED_UNIT ( * ) PLANE_ANGLE_UNIT ( ) SI_UNIT ( $, .RADIAN. ) );
#24 = PERSON_AND_ORGANIZATION_ROLE ( 'design_supplier' ) ;
#25 = CIRCLE ( 'NONE', #10, 40.00000000000000000 ) ;
#26 = CALENDAR_DATE ( 2025, 5, 8 ) ;
#27 = DATE_TIME_ROLE ( 'classification_date' ) ;
#28 = DATE_AND_TIME ( #79, #115 ) ;
#29 = APPLICATION_CONTEXT ( 'configuration controlled 3d designs of mechanical parts and assemblies' ) ;
#30 = FACE_OUTER_BOUND ( 'NONE', #117, .T. ) ;
#31 = EDGE_LOOP ( 'NONE', ( #153 ) ) ;
#32 = ADVANCED_FACE ( 'NONE', ( #104 ), #44, .F. ) ;
#33 = ORIENTED_EDGE ( 'NONE', *, *, #85, .T. ) ;
#34 = AXIS2_PLACEMENT_3D ( 'NONE', #119, #58, #95 ) ;
#35 = DIRECTION ( 'NONE',  ( -1.000000000000000000, -0.000000000000000000, -0.000000000000000000 ) ) ;
#36 = CC_DESIGN_DATE_AND_TIME_ASSIGNMENT ( #28, #114, ( #164 ) ) ;
#37 = AXIS2_PLACEMENT_3D ( 'NONE', #167, #21, #19 ) ;
#38 = COORDINATED_UNIVERSAL_TIME_OFFSET ( 2, 0, .AHEAD. ) ;
#39 = CALENDAR_DATE ( 2025, 5, 8 ) ;
#40 = CC_DESIGN_PERSON_AND_ORGANIZATION_ASSIGNMENT ( #88, #55, ( #118 ) ) ;
#41 = LOCAL_TIME ( 8, 57, 0.000000000000000000, #157 ) ;
#42 = APPROVAL_STATUS ( 'not_yet_approved' ) ;
#43 = DATE_AND_TIME ( #134, #41 ) ;
#44 = PLANE ( 'NONE',  #145 ) ;
#45 = AXIS2_PLACEMENT_3D ( 'NONE', #57, #59, #108 ) ;
#46 = ORIENTED_EDGE ( 'NONE', *, *, #20, .T. ) ;
#47 = CARTESIAN_POINT ( 'NONE',  ( 25.24695076595960330, 0.000000000000000000, 0.000000000000000000 ) ) ;
#48 = FACE_OUTER_BOUND ( 'NONE', #6, .T. ) ;
#49 = APPLICATION_CONTEXT ( 'configuration controlled 3d designs of mechanical parts and assemblies' ) ;
#50 =( LENGTH_UNIT ( ) NAMED_UNIT ( * ) SI_UNIT ( .MILLI., .METRE. ) );
#51 = PERSON_AND_ORGANIZATION ( #83, #166 ) ;
#52 = PERSON_AND_ORGANIZATION_ROLE ( 'creator' ) ;
#53 = EDGE_CURVE ( 'NONE', #8, #8, #149, .T. ) ;
#54 = APPROVAL_DATE_TIME ( #12, #120 ) ;
#55 = PERSON_AND_ORGANIZATION_ROLE ( 'creator' ) ;
#56 = PRODUCT ( '250805 STEP 1-400359-00_10926', '250805 STEP 1-400359-00_10926', '', ( #128 ) ) ;
#57 = CARTESIAN_POINT ( 'NONE',  ( 0.000000000000000000, 0.000000000000000000, 0.000000000000000000 ) ) ;
#58 = DIRECTION ( 'NONE',  ( -1.000000000000000000, 0.000000000000000000, -0.000000000000000000 ) ) ;
#59 = DIRECTION ( 'NONE',  ( -1.000000000000000000, -0.000000000000000000, -0.000000000000000000 ) ) ;
#60 = TOROIDAL_SURFACE ( 'NONE', #66, 44.00000000000000000, 11.00000000000000000 ) ;
#61 = CC_DESIGN_PERSON_AND_ORGANIZATION_ASSIGNMENT ( #9, #133, ( #56 ) ) ;
#62 = APPROVAL_ROLE ( '' ) ;
#63 = ADVANCED_FACE ( 'NONE', ( #30 ), #69, .F. ) ;
#64 = DATE_AND_TIME ( #39, #137 ) ;
#65 = APPROVAL_DATE_TIME ( #43, #126 ) ;
#66 = AXIS2_PLACEMENT_3D ( 'NONE', #96, #155, #87 ) ;
#67 = EDGE_LOOP ( 'NONE', ( #17 ) ) ;
#68 = AXIS2_PLACEMENT_3D ( 'NONE', #73, #35, #75 ) ;
#69 = PLANE ( 'NONE',  #34 ) ;
#70 = CC_DESIGN_DATE_AND_TIME_ASSIGNMENT ( #64, #27, ( #101 ) ) ;
#71 = FACE_OUTER_BOUND ( 'NONE', #84, .T. ) ;
#72 = LOCAL_TIME ( 8, 57, 0.000000000000000000, #38 ) ;
#73 = CARTESIAN_POINT ( 'NONE',  ( 0.000000000000000000, 0.000000000000000000, 0.000000000000000000 ) ) ;
#74 = CARTESIAN_POINT ( 'NONE',  ( 0.000000000000000000, 0.000000000000000000, 40.00000000000000000 ) ) ;
#75 = DIRECTION ( 'NONE',  ( 0.000000000000000000, 0.000000000000000000, 1.000000000000000000 ) ) ;
#76 = CIRCLE ( 'NONE', #97, 40.00000000000000711 ) ;
#77 = CARTESIAN_POINT ( 'NONE',  ( 30.00000000000000000, 0.000000000000000000, 40.00000000000000000 ) ) ;
#78 = PERSON_AND_ORGANIZATION ( #83, #166 ) ;
#79 = CALENDAR_DATE ( 2025, 5, 8 ) ;
#80 = CC_DESIGN_APPROVAL ( #90, ( #164 ) ) ;
#81 = DIRECTION ( 'NONE',  ( 0.000000000000000000, 0.000000000000000000, -1.000000000000000000 ) ) ;
#82 = ADVANCED_FACE ( 'NONE', ( #143, #144 ), #60, .F. ) ;
#83 = PERSON ( 'UNSPECIFIED', 'UNSPECIFIED', 'UNSPECIFIED', ('UNSPECIFIED'), ('UNSPECIFIED'), ('UNSPECIFIED') ) ;
#84 = EDGE_LOOP ( 'NONE', ( #140 ) ) ;
#85 = EDGE_CURVE ( 'NONE', #109, #109, #89, .T. ) ;
#86 = ADVANCED_BREP_SHAPE_REPRESENTATION ( '250805 STEP 1-400359-00_10926', ( #103, #159 ), #22 ) ;
#87 = DIRECTION ( 'NONE',  ( 0.000000000000000000, 0.000000000000000000, 1.000000000000000000 ) ) ;
#88 = PERSON_AND_ORGANIZATION ( #83, #166 ) ;
#89 = CIRCLE ( 'NONE', #37, 40.00000000000000000 ) ;
#90 = APPROVAL ( #98, 'UNSPECIFIED' ) ;
#91 = DATE_AND_TIME ( #11, #72 ) ;
#92 = APPROVAL_PERSON_ORGANIZATION ( #172, #90, #112 ) ;
#93 = DIRECTION ( 'NONE',  ( 1.000000000000000000, 0.000000000000000000, 0.000000000000000000 ) ) ;
#94 = DIRECTION ( 'NONE',  ( 0.000000000000000000, 0.000000000000000000, 1.000000000000000000 ) ) ;
#95 = DIRECTION ( 'NONE',  ( -0.000000000000000000, 0.000000000000000000, 1.000000000000000000 ) ) ;
#96 = CARTESIAN_POINT ( 'NONE',  ( 15.00000000000000000, 0.000000000000000000, 0.000000000000000000 ) ) ;
#97 = AXIS2_PLACEMENT_3D ( 'NONE', #47, #116, #4 ) ;
#98 = APPROVAL_STATUS ( 'not_yet_approved' ) ;
#99 = CARTESIAN_POINT ( 'NONE',  ( 0.000000000000000000, 0.000000000000000000, 0.000000000000000000 ) ) ;
#100 = APPLICATION_PROTOCOL_DEFINITION ( 'international standard', 'config_control_design', 1994, #29 ) ;
#101 = SECURITY_CLASSIFICATION ( '', '', #174 ) ;
#102 = PERSON_AND_ORGANIZATION ( #83, #166 ) ;
#103 = MANIFOLD_SOLID_BREP ( 'DeleteFace5', #135 ) ;
#104 = FACE_OUTER_BOUND ( 'NONE', #15, .T. ) ;
#105 = AXIS2_PLACEMENT_3D ( 'NONE', #106, #136, #1 ) ;
#106 = CARTESIAN_POINT ( 'NONE',  ( 30.00000000000000000, 0.000000000000000000, 0.000000000000000000 ) ) ;
#107 = ORIENTED_EDGE ( 'NONE', *, *, #20, .F. ) ;
#108 = DIRECTION ( 'NONE',  ( 0.000000000000000000, 0.000000000000000000, 1.000000000000000000 ) ) ;
#109 = VERTEX_POINT ( 'NONE', #125 ) ;
#110 = UNCERTAINTY_MEASURE_WITH_UNIT (LENGTH_MEASURE( 1.000000000000000082E-05 ), #50, 'distance_accuracy_value', 'NONE');
#111 =( NAMED_UNIT ( * ) SI_UNIT ( $, .STERADIAN. ) SOLID_ANGLE_UNIT ( ) );
#112 = APPROVAL_ROLE ( '' ) ;
#113 = DIRECTION ( 'NONE',  ( 0.000000000000000000, 0.000000000000000000, 1.000000000000000000 ) ) ;
#114 = DATE_TIME_ROLE ( 'creation_date' ) ;
#115 = LOCAL_TIME ( 8, 57, 0.000000000000000000, #160 ) ;
#116 = DIRECTION ( 'NONE',  ( -1.000000000000000000, -0.000000000000000000, -0.000000000000000000 ) ) ;
#117 = EDGE_LOOP ( 'NONE', ( #154 ) ) ;
#118 = PRODUCT_DEFINITION_FORMATION_WITH_SPECIFIED_SOURCE ( 'ANY', '', #56, .NOT_KNOWN. ) ;
#119 = CARTESIAN_POINT ( 'NONE',  ( 30.00000000000000000, 23.50000000000000000, 0.000000000000000000 ) ) ;
#120 = APPROVAL ( #171, 'UNSPECIFIED' ) ;
#121 = DESIGN_CONTEXT ( 'detailed design', #49, 'design' ) ;
#122 = CYLINDRICAL_SURFACE ( 'NONE', #45, 40.00000000000000711 ) ;
#123 = VERTEX_POINT ( 'NONE', #124 ) ;
#124 = CARTESIAN_POINT ( 'NONE',  ( 25.24695076595960330, 0.000000000000000000, 40.00000000000000711 ) ) ;
#125 = CARTESIAN_POINT ( 'NONE',  ( 4.753049234040398474, 0.000000000000000000, 40.00000000000000000 ) ) ;
#126 = APPROVAL ( #42, 'UNSPECIFIED' ) ;
#127 = VERTEX_POINT ( 'NONE', #74 ) ;
#128 = MECHANICAL_CONTEXT ( 'NONE', #29, 'mechanical' ) ;
#129 = APPROVAL_ROLE ( '' ) ;
#130 = CC_DESIGN_SECURITY_CLASSIFICATION ( #101, ( #118 ) ) ;
#131 = COORDINATED_UNIVERSAL_TIME_OFFSET ( 2, 0, .AHEAD. ) ;
#132 = PRODUCT_RELATED_PRODUCT_CATEGORY ( 'detail', '', ( #56 ) ) ;
#133 = PERSON_AND_ORGANIZATION_ROLE ( 'design_owner' ) ;
#134 = CALENDAR_DATE ( 2025, 5, 8 ) ;
#135 = CLOSED_SHELL ( 'NONE', ( #63, #32, #5, #82, #139 ) ) ;
#136 = DIRECTION ( 'NONE',  ( -1.000000000000000000, -0.000000000000000000, -0.000000000000000000 ) ) ;
#137 = LOCAL_TIME ( 8, 57, 0.000000000000000000, #131 ) ;
#138 = ORIENTED_EDGE ( 'NONE', *, *, #14, .F. ) ;
#139 = ADVANCED_FACE ( 'NONE', ( #48, #142 ), #18, .T. ) ;
#140 = ORIENTED_EDGE ( 'NONE', *, *, #53, .T. ) ;
#141 = CC_DESIGN_PERSON_AND_ORGANIZATION_ASSIGNMENT ( #150, #24, ( #118 ) ) ;
#142 = FACE_OUTER_BOUND ( 'NONE', #152, .T. ) ;
#143 = FACE_OUTER_BOUND ( 'NONE', #67, .T. ) ;
#144 = FACE_OUTER_BOUND ( 'NONE', #31, .T. ) ;
#145 = AXIS2_PLACEMENT_3D ( 'NONE', #165, #93, #81 ) ;
#146 = PERSON_AND_ORGANIZATION_ROLE ( 'classification_officer' ) ;
#147 = SHAPE_DEFINITION_REPRESENTATION ( #173, #86 ) ;
#148 = PERSON_AND_ORGANIZATION ( #83, #166 ) ;
#149 = CIRCLE ( 'NONE', #105, 40.00000000000000000 ) ;
#150 = PERSON_AND_ORGANIZATION ( #83, #166 ) ;
#151 = LOCAL_TIME ( 8, 57, 0.000000000000000000, #156 ) ;
#152 = EDGE_LOOP ( 'NONE', ( #33 ) ) ;
#153 = ORIENTED_EDGE ( 'NONE', *, *, #14, .T. ) ;
#154 = ORIENTED_EDGE ( 'NONE', *, *, #53, .F. ) ;
#155 = DIRECTION ( 'NONE',  ( -1.000000000000000000, -0.000000000000000000, -0.000000000000000000 ) ) ;
#156 = COORDINATED_UNIVERSAL_TIME_OFFSET ( 2, 0, .AHEAD. ) ;
#157 = COORDINATED_UNIVERSAL_TIME_OFFSET ( 2, 0, .AHEAD. ) ;
#158 = APPLICATION_PROTOCOL_DEFINITION ( 'international standard', 'config_control_design', 1994, #49 ) ;
#159 = AXIS2_PLACEMENT_3D ( 'NONE', #99, #113, #170 ) ;
#160 = COORDINATED_UNIVERSAL_TIME_OFFSET ( 2, 0, .AHEAD. ) ;
#161 = FACE_OUTER_BOUND ( 'NONE', #175, .T. ) ;
#162 = APPROVAL_PERSON_ORGANIZATION ( #148, #120, #129 ) ;
#163 = DIRECTION ( 'NONE',  ( -1.000000000000000000, -0.000000000000000000, -0.000000000000000000 ) ) ;
#164 = PRODUCT_DEFINITION ( 'UNKNOWN', '', #118, #121 ) ;
#165 = CARTESIAN_POINT ( 'NONE',  ( 0.000000000000000000, 21.00000000000000000, 0.000000000000000000 ) ) ;
#166 = ORGANIZATION ( 'UNSPECIFIED', 'UNSPECIFIED', '' ) ;
#167 = CARTESIAN_POINT ( 'NONE',  ( 4.753049234040398474, 0.000000000000000000, 0.000000000000000000 ) ) ;
#168 = APPROVAL_DATE_TIME ( #91, #90 ) ;
#169 = CC_DESIGN_PERSON_AND_ORGANIZATION_ASSIGNMENT ( #78, #52, ( #164 ) ) ;
#170 = DIRECTION ( 'NONE',  ( 1.000000000000000000, 0.000000000000000000, 0.000000000000000000 ) ) ;
#171 = APPROVAL_STATUS ( 'not_yet_approved' ) ;
#172 = PERSON_AND_ORGANIZATION ( #83, #166 ) ;
#173 = PRODUCT_DEFINITION_SHAPE ( 'NONE', 'NONE',  #164 ) ;
#174 = SECURITY_CLASSIFICATION_LEVEL ( 'unclassified' ) ;
#175 = EDGE_LOOP ( 'NONE', ( #138 ) ) ;
ENDSEC;
END-ISO-10303-21;
